  0
SECTION
  2
HEADER
  9
$ACADVER
  1
AC1015
  9
$ACADMAINTVER
 70
     6
  9
$DWGCODEPAGE
  3
ANSI_1254
  9
$INSBASE
 10
0.0
 20
0.0
 30
0.0
  9
$EXTMIN
 10
0.0
 20
0.0
 30
0.0
  9
$EXTMAX
 10
279.4
 20
215.9
 30
0.0
  9
$LIMMIN
 10
0.0
 20
0.0
  9
$LIMMAX
 10
279.4
 20
215.9
  9
$ORTHOMODE
 70
     0
  9
$REGENMODE
 70
     1
  9
$FILLMODE
 70
     1
  9
$QTEXTMODE
 70
     0
  9
$MIRRTEXT
 70
     1
  9
$LTSCALE
 40
1.0
  9
$ATTMODE
 70
     1
  9
$TEXTSIZE
 40
3.5
  9
$TRACEWID
 40
1.0
  9
$TEXTSTYLE
  7
Standard
  9
$CLAYER
  8
0
  9
$CELTYPE
  6
ByLayer
  9
$CECOLOR
 62
   256
  9
$CELTSCALE
 40
1.0
  9
$DISPSILH
 70
     0
  9
$DIMSCALE
 40
1.0
  9
$DIMASZ
 40
3.5
  9
$DIMEXO
 40
1.0
  9
$DIMDLI
 40
3.75
  9
$DIMRND
 40
0.0
  9
$DIMDLE
 40
0.0
  9
$DIMEXE
 40
1.0
  9
$DIMTP
 40
0.0
  9
$DIMTM
 40
0.0
  9
$DIMTXT
 40
3.5
  9
$DIMCEN
 40
2.5
  9
$DIMTSZ
 40
0.0
  9
$DIMTOL
 70
     0
  9
$DIMLIM
 70
     0
  9
$DIMTIH
 70
     1
  9
$DIMTOH
 70
     1
  9
$DIMSE1
 70
     0
  9
$DIMSE2
 70
     0
  9
$DIMTAD
 70
     1
  9
$DIMZIN
 70
     0
  9
$DIMBLK
  1

  9
$DIMASO
 70
     1
  9
$DIMSHO
 70
     1
  9
$DIMPOST
  1

  9
$DIMAPOST
  1

  9
$DIMALT
 70
     0
  9
$DIMALTD
 70
     3
  9
$DIMALTF
 40
0.0393700787
  9
$DIMLFAC
 40
1.0
  9
$DIMTOFL
 70
     1
  9
$DIMTVP
 40
0.0
  9
$DIMTIX
 70
     0
  9
$DIMSOXD
 70
     0
  9
$DIMSAH
 70
     0
  9
$DIMBLK1
  1

  9
$DIMBLK2
  1

  9
$DIMSTYLE
  2
ISO-25
  9
$DIMCLRD
 70
     0
  9
$DIMCLRE
 70
     0
  9
$DIMCLRT
 70
     0
  9
$DIMTFAC
 40
1.0
  9
$DIMGAP
 40
1.524
  9
$DIMJUST
 70
     0
  9
$DIMSD1
 70
     0
  9
$DIMSD2
 70
     0
  9
$DIMTOLJ
 70
     0
  9
$DIMTZIN
 70
     0
  9
$DIMALTZ
 70
     0
  9
$DIMALTTZ
 70
     0
  9
$DIMUPT
 70
     0
  9
$DIMDEC
 70
     2
  9
$DIMTDEC
 70
     2
  9
$DIMALTU
 70
     2
  9
$DIMALTTD
 70
     3
  9
$DIMTXSTY
  7
Standard
  9
$DIMAUNIT
 70
     0
  9
$DIMADEC
 70
     2
  9
$DIMALTRND
 40
0.0
  9
$DIMAZIN
 70
     0
  9
$DIMDSEP
 70
    44
  9
$DIMATFIT
 70
     3
  9
$DIMFRAC
 70
     0
  9
$DIMLDRBLK
  1

  9
$DIMLUNIT
 70
     2
  9
$DIMLWD
 70
    -2
  9
$DIMLWE
 70
    -2
  9
$DIMTMOVE
 70
     0
  9
$LUNITS
 70
     2
  9
$LUPREC
 70
     2
  9
$SKETCHINC
 40
1.0
  9
$FILLETRAD
 40
10.0
  9
$AUNITS
 70
     0
  9
$AUPREC
 70
     2
  9
$MENU
  1
.
  9
$ELEVATION
 40
0.0
  9
$PELEVATION
 40
0.0
  9
$THICKNESS
 40
0.0
  9
$LIMCHECK
 70
     0
  9
$CHAMFERA
 40
0.0
  9
$CHAMFERB
 40
0.0
  9
$CHAMFERC
 40
0.0
  9
$CHAMFERD
 40
0.0
  9
$SKPOLY
 70
     0
  9
$TDCREATE
 40
2459921.536943727
  9
$TDUCREATE
 40
2459921.411943727
  9
$TDUPDATE
 40
2459921.536943935
  9
$TDUUPDATE
 40
2459921.411943935
  9
$TDINDWG
 40
0.0000000116
  9
$TDUSRTIMER
 40
0.0000000116
  9
$USRTIMER
 70
     1
  9
$ANGBASE
 50
0.0
  9
$ANGDIR
 70
     0
  9
$PDMODE
 70
     0
  9
$PDSIZE
 40
-1.0
  9
$PLINEWID
 40
0.0
  9
$SPLFRAME
 70
     0
  9
$SPLINETYPE
 70
     6
  9
$SPLINESEGS
 70
     8
  9
$HANDSEED
  5
CC
  9
$SURFTAB1
 70
     6
  9
$SURFTAB2
 70
     6
  9
$SURFTYPE
 70
     6
  9
$SURFU
 70
     6
  9
$SURFV
 70
     6
  9
$UCSBASE
  2

  9
$UCSNAME
  2

  9
$UCSORG
 10
0.0
 20
0.0
 30
0.0
  9
$UCSXDIR
 10
1.0
 20
0.0
 30
0.0
  9
$UCSYDIR
 10
0.0
 20
1.0
 30
0.0
  9
$UCSORTHOREF
  2

  9
$UCSORTHOVIEW
 70
     0
  9
$UCSORGTOP
 10
0.0
 20
0.0
 30
0.0
  9
$UCSORGBOTTOM
 10
0.0
 20
0.0
 30
0.0
  9
$UCSORGLEFT
 10
0.0
 20
0.0
 30
0.0
  9
$UCSORGRIGHT
 10
0.0
 20
0.0
 30
0.0
  9
$UCSORGFRONT
 10
0.0
 20
0.0
 30
0.0
  9
$UCSORGBACK
 10
0.0
 20
0.0
 30
0.0
  9
$PUCSBASE
  2

  9
$PUCSNAME
  2

  9
$PUCSORG
 10
0.0
 20
0.0
 30
0.0
  9
$PUCSXDIR
 10
1.0
 20
0.0
 30
0.0
  9
$PUCSYDIR
 10
0.0
 20
1.0
 30
0.0
  9
$PUCSORTHOREF
  2

  9
$PUCSORTHOVIEW
 70
     0
  9
$PUCSORGTOP
 10
0.0
 20
0.0
 30
0.0
  9
$PUCSORGBOTTOM
 10
0.0
 20
0.0
 30
0.0
  9
$PUCSORGLEFT
 10
0.0
 20
0.0
 30
0.0
  9
$PUCSORGRIGHT
 10
0.0
 20
0.0
 30
0.0
  9
$PUCSORGFRONT
 10
0.0
 20
0.0
 30
0.0
  9
$PUCSORGBACK
 10
0.0
 20
0.0
 30
0.0
  9
$USERI1
 70
     0
  9
$USERI2
 70
     0
  9
$USERI3
 70
     0
  9
$USERI4
 70
     0
  9
$USERI5
 70
     0
  9
$USERR1
 40
0.0
  9
$USERR2
 40
0.0
  9
$USERR3
 40
0.0
  9
$USERR4
 40
0.0
  9
$USERR5
 40
0.0
  9
$WORLDVIEW
 70
     1
  9
$SHADEDGE
 70
     3
  9
$SHADEDIF
 70
    70
  9
$TILEMODE
 70
     1
  9
$MAXACTVP
 70
    64
  9
$PINSBASE
 10
0.0
 20
0.0
 30
0.0
  9
$PLIMCHECK
 70
     0
  9
$PEXTMIN
 10
1.0000000000E+20
 20
1.0000000000E+20
 30
1.0000000000E+20
  9
$PEXTMAX
 10
-1.0000000000E+20
 20
-1.0000000000E+20
 30
-1.0000000000E+20
  9
$PLIMMIN
 10
0.0
 20
0.0
  9
$PLIMMAX
 10
420.0
 20
297.0
  9
$UNITMODE
 70
     0
  9
$VISRETAIN
 70
     1
  9
$PLINEGEN
 70
     0
  9
$PSLTSCALE
 70
     1
  9
$TREEDEPTH
 70
  3020
  9
$CMLSTYLE
  2
Standard
  9
$CMLJUST
 70
     0
  9
$CMLSCALE
 40
20.0
  9
$PROXYGRAPHICS
 70
     1
  9
$MEASUREMENT
 70
     1
  9
$CELWEIGHT
370
    -1
  9
$ENDCAPS
280
     0
  9
$JOINSTYLE
280
     0
  9
$LWDISPLAY
290
     1
  9
$INSUNITS
 70
     4
  9
$HYPERLINKBASE
  1

  9
$STYLESHEET
  1

  9
$XEDIT
290
     1
  9
$CEPSNTYPE
380
     0
  9
$PSTYLEMODE
290
     1
  9
$FINGERPRINTGUID
  2
{da153ed0-a997-4561-a513-e3c80f7f342a}
  9
$VERSIONGUID
  2
{FAEB1C32-E019-11D5-929B-00C0DF256EC4}
  9
$EXTNAMES
290
     1
  9
$PSVPSCALE
 40
0.0
  9
$OLESTARTUP
290
     0
  0
ENDSEC
  0
SECTION
  2
CLASSES
  0
CLASS
  1
ACDBDICTIONARYWDFLT
  2
AcDbDictionaryWithDefault
  3
ObjectDBX Classes
 90
        0
280
     0
281
     0
  0
CLASS
  1
VISUALSTYLE
  2
AcDbVisualStyle
  3
ObjectDBX Classes
 90
     4095
280
     0
281
     0
  0
CLASS
  1
MATERIAL
  2
AcDbMaterial
  3
ObjectDBX Classes
 90
     1153
280
     0
281
     0
  0
CLASS
  1
SCALE
  2
AcDbScale
  3
ObjectDBX Classes
 90
     1153
280
     0
281
     0
  0
CLASS
  1
TABLESTYLE
  2
AcDbTableStyle
  3
ObjectDBX Classes
 90
     4095
280
     0
281
     0
  0
CLASS
  1
MLEADERSTYLE
  2
AcDbMLeaderStyle
  3
ACDB_MLEADERSTYLE_CLASS
 90
     4095
280
     0
281
     0
  0
CLASS
  1
SUN
  2
AcDbSun
  3
SCENEOE
 90
     1153
280
     0
281
     0
  0
CLASS
  1
ACDBPLACEHOLDER
  2
AcDbPlaceHolder
  3
ObjectDBX Classes
 90
        0
280
     0
281
     0
  0
CLASS
  1
LAYOUT
  2
AcDbLayout
  3
ObjectDBX Classes
 90
        0
280
     0
281
     0
  0
ENDSEC
  0
SECTION
  2
TABLES
  0
TABLE
  2
VPORT
  5
8
330
0
100
AcDbSymbolTable
 70
     1
  0
VPORT
  5
29
330
8
100
AcDbSymbolTableRecord
100
AcDbViewportTableRecord
  2
*Active
 70
     0
 10
0.0
 20
0.0
 11
1.0
 21
1.0
 12
139.7
 22
107.95
 13
0.0
 23
0.0
 14
10.0
 24
10.0
 15
10.0
 25
10.0
 16
0.0
 26
0.0
 36
1.0
 17
0.0
 27
0.0
 37
0.0
 40
215.9
 41
1.2941176471
 42
50.0
 43
0.0
 44
0.0
 50
0.0
 51
0.0
 71
     0
 72
  2000
 73
     1
 74
     3
 75
     0
 76
     0
 77
     0
 78
     0
281
     0
 65
     1
110
0.0
120
0.0
130
0.0
111
1.0
121
0.0
131
0.0
112
0.0
122
1.0
132
0.0
 79
     0
146
0.0
  0
ENDTAB
  0
TABLE
  2
LTYPE
  5
5
330
0
100
AcDbSymbolTable
 70
     6
  0
LTYPE
  5
14
330
5
100
AcDbSymbolTableRecord
100
AcDbLinetypeTableRecord
  2
ByBlock
 70
     0
  3

 72
    65
 73
     0
 40
0.0
  0
LTYPE
  5
15
330
5
100
AcDbSymbolTableRecord
100
AcDbLinetypeTableRecord
  2
ByLayer
 70
     0
  3

 72
    65
 73
     0
 40
0.0
  0
LTYPE
  5
16
330
5
100
AcDbSymbolTableRecord
100
AcDbLinetypeTableRecord
  2
Continuous
 70
     0
  3
Solid line
 72
    65
 73
     0
 40
0.0
  0
LTYPE
  5
6E
330
5
100
AcDbSymbolTableRecord
100
AcDbLinetypeTableRecord
  2
HIDDEN
 70
     0
  3
Hidden __ __ __ __ __ __ __ __ __ __ __ __ __ __
 72
    65
 73
     2
 40
1.905
 49
1.27
 74
     0
 49
-0.635
 74
     0
  0
LTYPE
  5
6F
330
5
100
AcDbSymbolTableRecord
100
AcDbLinetypeTableRecord
  2
PHANTOM
 70
     0
  3
Phantom ______  __  __  ______  __  __  ______
 72
    65
 73
     6
 40
12.7
 49
6.35
 74
     0
 49
-1.27
 74
     0
 49
1.27
 74
     0
 49
-1.27
 74
     0
 49
1.27
 74
     0
 49
-1.27
 74
     0
  0
LTYPE
  5
70
330
5
100
AcDbSymbolTableRecord
100
AcDbLinetypeTableRecord
  2
CENTER
 70
     0
  3
Center ____ _ ____ _ ____ _ ____ _ ____ _ ____
 72
    65
 73
     4
 40
10.16
 49
6.35
 74
     0
 49
-1.27
 74
     0
 49
1.27
 74
     0
 49
-1.27
 74
     0
  0
LTYPE
  5
71
330
5
100
AcDbSymbolTableRecord
100
AcDbLinetypeTableRecord
  2
CENTERX2
 70
     0
  3
Center (2x) ________  __  ________  __  _____
 72
    65
 73
     4
 40
20.32
 49
12.7
 74
     0
 49
-2.54
 74
     0
 49
2.54
 74
     0
 49
-2.54
 74
     0
  0
LTYPE
  5
72
330
5
100
AcDbSymbolTableRecord
100
AcDbLinetypeTableRecord
  2
DOT2
 70
     0
  3
Dot (.5x) ........................................
 72
    65
 73
     2
 40
0.635
 49
0.0
 74
     0
 49
-0.635
 74
     0
  0
ENDTAB
  0
TABLE
  2
LAYER
  5
2
330
0
100
AcDbSymbolTable
 70
    17
  0
LAYER
  5
10
330
2
100
AcDbSymbolTableRecord
100
AcDbLayerTableRecord
  2
0
 70
     0
 62
     7
  6
Continuous
370
    -3
390
F
  0
LAYER
  5
73
330
2
100
AcDbSymbolTableRecord
100
AcDbLayerTableRecord
  2
FORMAT
 70
     0
 62
     7
  6
Continuous
370
    -3
390
F
  0
LAYER
  5
74
330
2
100
AcDbSymbolTableRecord
100
AcDbLayerTableRecord
  2
YARDIMCI_GEOMETRI
 70
     0
 62
    -6
  6
Continuous
290
     0
370
    -3
390
F
  0
LAYER
  5
75
330
2
100
AcDbSymbolTableRecord
100
AcDbLayerTableRecord
  2
SAYFA_CERCEVESI
 70
     0
 62
     7
  6
Continuous
370
    25
390
F
  0
LAYER
  5
76
330
2
100
AcDbSymbolTableRecord
100
AcDbLayerTableRecord
  2
ANTET
 70
     0
 62
     7
  6
Continuous
370
    -3
390
F
  0
LAYER
  5
77
330
2
100
AcDbSymbolTableRecord
100
AcDbLayerTableRecord
  2
OLCU
 70
     0
 62
   150
  6
Continuous
370
    -3
390
F
  0
LAYER
  5
78
330
2
100
AcDbSymbolTableRecord
100
AcDbLayerTableRecord
  2
METIN
 70
     0
 62
    96
  6
Continuous
370
    -3
390
F
  0
LAYER
  5
79
330
2
100
AcDbSymbolTableRecord
100
AcDbLayerTableRecord
  2
BALON
 70
     0
 62
     5
  6
Continuous
370
    -3
390
F
  0
LAYER
  5
7A
330
2
100
AcDbSymbolTableRecord
100
AcDbLayerTableRecord
  2
VURGU
 70
     0
 62
     7
  6
Continuous
370
    -3
390
F
  0
LAYER
  5
7B
330
2
100
AcDbSymbolTableRecord
100
AcDbLayerTableRecord
  2
SILIK
 70
     0
 62
     7
  6
Continuous
370
    -3
390
F
  0
LAYER
  5
7C
330
2
100
AcDbSymbolTableRecord
100
AcDbLayerTableRecord
  2
MODEL
 70
     0
 62
     7
  6
Continuous
370
    -3
390
F
  0
LAYER
  5
7D
330
2
100
AcDbSymbolTableRecord
100
AcDbLayerTableRecord
  2
DETAYLANDıRMA
 70
     0
 62
   190
  6
Continuous
370
    -3
390
F
  0
LAYER
  5
7E
330
2
100
AcDbSymbolTableRecord
100
AcDbLayerTableRecord
  2
TOLERANS
 70
     0
 62
   230
  6
Continuous
370
    -3
390
F
  0
LAYER
  5
7F
330
2
100
AcDbSymbolTableRecord
100
AcDbLayerTableRecord
  2
MERKEZ_CIZGILERI
 70
     0
 62
    30
  6
Continuous
370
    -3
390
F
  0
LAYER
  5
80
330
2
100
AcDbSymbolTableRecord
100
AcDbLayerTableRecord
  2
KESIT-DETAY_CIZGILERI
 70
     0
 62
     7
  6
Continuous
370
    -3
390
F
  0
LAYER
  5
81
330
2
100
AcDbSymbolTableRecord
100
AcDbLayerTableRecord
  2
\U+041E\U+0421\U+0415\U+0412\U+042B\U+0415
 70
     0
 62
     7
  6
Continuous
370
    -3
390
F
  0
LAYER
  5
82
330
2
100
AcDbSymbolTableRecord
100
AcDbLayerTableRecord
  2
\U+0412\U+041E\U+0414\U+042F\U+041D\U+042B\U+0415_\U+0417\U+041D\U+0410\U+041A\U+0418
 70
     0
 62
    11
  6
Continuous
370
    -3
390
F
  0
ENDTAB
  0
TABLE
  2
STYLE
  5
3
330
0
100
AcDbSymbolTable
 70
     1
  0
STYLE
  5
11
330
3
100
AcDbSymbolTableRecord
100
AcDbTextStyleTableRecord
  2
Standard
 70
     0
 40
0.0
 41
1.0
 50
0.0
 71
     0
 42
3.5
  3
txt
  4

  0
ENDTAB
  0
TABLE
  2
VIEW
  5
6
330
0
100
AcDbSymbolTable
 70
     0
  0
ENDTAB
  0
TABLE
  2
UCS
  5
7
330
0
100
AcDbSymbolTable
 70
     0
  0
ENDTAB
  0
TABLE
  2
APPID
  5
9
330
0
100
AcDbSymbolTable
 70
     1
  0
APPID
  5
12
330
9
100
AcDbSymbolTableRecord
100
AcDbRegAppTableRecord
  2
ACAD
 70
     0
  0
ENDTAB
  0
TABLE
  2
DIMSTYLE
  5
A
330
0
100
AcDbSymbolTable
 70
     1
100
AcDbDimStyleTable
  0
DIMSTYLE
105
27
330
A
100
AcDbSymbolTableRecord
100
AcDbDimStyleTableRecord
  2
ISO-25
 70
     0
 41
2.5
 42
0.625
 43
3.75
 44
1.25
 73
     0
 74
     0
 77
     1
 78
     8
140
2.5
141
2.5
143
0.0393700787
147
0.625
171
     3
172
     1
178
     0
271
     2
272
     2
274
     3
278
    44
283
     0
284
     8
340
11
  0
ENDTAB
  0
TABLE
  2
BLOCK_RECORD
  5
1
330
0
100
AcDbSymbolTable
 70
     3
  0
BLOCK_RECORD
  5
1F
330
1
100
AcDbSymbolTableRecord
100
AcDbBlockTableRecord
  2
*Model_Space
340
22
  0
BLOCK_RECORD
  5
1B
330
1
100
AcDbSymbolTableRecord
100
AcDbBlockTableRecord
  2
*Paper_Space
340
1E
  0
BLOCK_RECORD
  5
23
330
1
100
AcDbSymbolTableRecord
100
AcDbBlockTableRecord
  2
*Paper_Space0
340
26
  0
BLOCK_RECORD
  5
88
330
1
100
AcDbSymbolTableRecord
100
AcDbBlockTableRecord
  2
SW_CENTERMARKSYMBOL_0
340
0
102
{BLKREFS
331
93
102
}
  0
BLOCK_RECORD
  5
9C
330
1
100
AcDbSymbolTableRecord
100
AcDbBlockTableRecord
  2
SW_CENTERMARKSYMBOL_1
340
0
102
{BLKREFS
331
A7
102
}
  0
ENDTAB
  0
ENDSEC
  0
SECTION
  2
BLOCKS
  0
BLOCK
  5
20
330
1F
100
AcDbEntity
  8
0
100
AcDbBlockBegin
  2
*Model_Space
 70
     0
 10
0.0
 20
0.0
 30
0.0
  3
*Model_Space
  1

  0
ENDBLK
  5
21
330
1F
100
AcDbEntity
  8
0
100
AcDbBlockEnd
  0
BLOCK
  5
1C
330
1B
100
AcDbEntity
 67
     1
  8
0
100
AcDbBlockBegin
  2
*Paper_Space
 70
     0
 10
0.0
 20
0.0
 30
0.0
  3
*Paper_Space
  1

  0
ENDBLK
  5
1D
330
1B
100
AcDbEntity
 67
     1
  8
0
100
AcDbBlockEnd
  0
BLOCK
  5
24
330
23
100
AcDbEntity
  8
0
100
AcDbBlockBegin
  2
*Paper_Space0
 70
     0
 10
0.0
 20
0.0
 30
0.0
  3
*Paper_Space0
  1

  0
ENDBLK
  5
25
330
23
100
AcDbEntity
  8
0
100
AcDbBlockEnd
  0
BLOCK
  5
89
330
88
100
AcDbEntity
  8
0
100
AcDbBlockBegin
  2
SW_CENTERMARKSYMBOL_0
 70
     0
 10
0.0
 20
0.0
 30
0.0
  3
SW_CENTERMARKSYMBOL_0
  1

  0
LINE
  5
8B
330
88
100
AcDbEntity
  8
FORMAT
 62
     0
100
AcDbLine
 10
0.0
 20
0.0
 30
0.0
 11
2.5
 21
0.0
 31
0.0
  0
LINE
  5
8C
330
88
100
AcDbEntity
  8
FORMAT
 62
     0
100
AcDbLine
 10
0.0
 20
0.0
 30
0.0
 11
0.0
 21
2.5
 31
0.0
  0
LINE
  5
8D
330
88
100
AcDbEntity
  8
FORMAT
 62
     0
100
AcDbLine
 10
0.0
 20
0.0
 30
0.0
 11
-2.5
 21
0.0
 31
0.0
  0
LINE
  5
8E
330
88
100
AcDbEntity
  8
FORMAT
 62
     0
100
AcDbLine
 10
0.0
 20
0.0
 30
0.0
 11
0.0
 21
-2.5
 31
0.0
  0
LINE
  5
8F
330
88
100
AcDbEntity
  8
FORMAT
 62
     0
100
AcDbLine
 10
5.0
 20
0.0
 30
0.0
 11
180.0
 21
0.0
 31
0.0
  0
LINE
  5
90
330
88
100
AcDbEntity
  8
FORMAT
 62
     0
100
AcDbLine
 10
0.0
 20
5.0
 30
0.0
 11
0.0
 21
180.0
 31
0.0
  0
LINE
  5
91
330
88
100
AcDbEntity
  8
FORMAT
 62
     0
100
AcDbLine
 10
-5.0
 20
0.0
 30
0.0
 11
-180.0
 21
0.0
 31
0.0
  0
LINE
  5
92
330
88
100
AcDbEntity
  8
FORMAT
 62
     0
100
AcDbLine
 10
0.0
 20
-5.0
 30
0.0
 11
0.0
 21
-180.0
 31
0.0
  0
ENDBLK
  5
8A
330
88
100
AcDbEntity
  8
0
100
AcDbBlockEnd
  0
BLOCK
  5
9D
330
9C
100
AcDbEntity
  8
0
100
AcDbBlockBegin
  2
SW_CENTERMARKSYMBOL_1
 70
     0
 10
0.0
 20
0.0
 30
0.0
  3
SW_CENTERMARKSYMBOL_1
  1

  0
LINE
  5
9F
330
9C
100
AcDbEntity
  8
FORMAT
 62
     0
100
AcDbLine
 10
0.0
 20
0.0
 30
0.0
 11
0.0
 21
2.5
 31
0.0
  0
LINE
  5
A0
330
9C
100
AcDbEntity
  8
FORMAT
 62
     0
100
AcDbLine
 10
0.0
 20
0.0
 30
0.0
 11
-2.5
 21
0.0
 31
0.0
  0
LINE
  5
A1
330
9C
100
AcDbEntity
  8
FORMAT
 62
     0
100
AcDbLine
 10
0.0
 20
0.0
 30
0.0
 11
0.0
 21
-2.5
 31
0.0
  0
LINE
  5
A2
330
9C
100
AcDbEntity
  8
FORMAT
 62
     0
100
AcDbLine
 10
0.0
 20
0.0
 30
0.0
 11
2.5
 21
0.0
 31
0.0
  0
LINE
  5
A3
330
9C
100
AcDbEntity
  8
FORMAT
 62
     0
100
AcDbLine
 10
0.0
 20
5.0
 30
0.0
 11
0.0
 21
57.5
 31
0.0
  0
LINE
  5
A4
330
9C
100
AcDbEntity
  8
FORMAT
 62
     0
100
AcDbLine
 10
-5.0
 20
0.0
 30
0.0
 11
-57.5
 21
0.0
 31
0.0
  0
LINE
  5
A5
330
9C
100
AcDbEntity
  8
FORMAT
 62
     0
100
AcDbLine
 10
0.0
 20
-5.0
 30
0.0
 11
0.0
 21
-57.5
 31
0.0
  0
LINE
  5
A6
330
9C
100
AcDbEntity
  8
FORMAT
 62
     0
100
AcDbLine
 10
5.0
 20
0.0
 30
0.0
 11
57.5
 21
0.0
 31
0.0
  0
ENDBLK
  5
9E
330
9C
100
AcDbEntity
  8
0
100
AcDbBlockEnd
  0
ENDSEC
  0
SECTION
  2
ENTITIES
  0
LINE
  5
83
330
1F
100
AcDbEntity
  8
0
  6
Continuous
 62
     7
370
    25
100
AcDbLine
 10
85.8001171859
 20
309.4121223526
 30
0.0
 11
85.8001171859
 21
178.1932636363
 31
0.0
  0
LINE
  5
84
330
1F
100
AcDbEntity
  8
0
  6
Continuous
 62
     7
370
    25
100
AcDbLine
 10
195.8001171859
 20
178.1932636363
 30
0.0
 11
195.8001171859
 21
309.4018955425
 31
0.0
  0
CIRCLE
  5
85
330
1F
100
AcDbEntity
  8
0
  6
Continuous
 62
     7
370
    25
100
AcDbCircle
 10
140.8001171859
 20
478.1932636363
 30
0.0
 40
156.4
  0
CIRCLE
  5
86
330
1F
100
AcDbEntity
  8
0
  6
Continuous
 62
     7
370
    25
100
AcDbCircle
 10
140.8001171859
 20
478.1932636363
 30
0.0
 40
177.5
  0
LINE
  5
87
330
1F
100
AcDbEntity
  8
0
  6
Continuous
 62
     7
370
    25
100
AcDbLine
 10
195.8001171859
 20
178.1932636363
 30
0.0
 11
85.8001171859
 21
178.1932636363
 31
0.0
  0
INSERT
  5
93
330
1F
100
AcDbEntity
  8
FORMAT
 62
     7
100
AcDbBlockReference
  2
SW_CENTERMARKSYMBOL_0
 10
140.8001171859
 20
478.1932636363
 30
0.0
  0
LINE
  5
94
330
1F
100
AcDbEntity
  8
0
  6
Continuous
 62
     7
370
    25
100
AcDbLine
 10
318.3001171859
 20
1202.1241419015
 30
0.0
 11
318.3001171859
 21
1777.1241419015
 31
0.0
  0
LINE
  5
95
330
1F
100
AcDbEntity
  8
0
  6
Continuous
 62
     7
370
    25
100
AcDbLine
 10
-36.6998828141
 20
1777.1241419015
 30
0.0
 11
-36.6998828141
 21
1202.1241419015
 31
0.0
  0
CIRCLE
  5
96
330
1F
100
AcDbEntity
  8
0
  6
Continuous
 62
     7
370
    25
100
AcDbCircle
 10
140.8001171859
 20
1489.6241419015
 30
0.0
 40
48.40000000000009
  0
CIRCLE
  5
97
330
1F
100
AcDbEntity
  8
0
  6
Continuous
 62
     7
370
    25
100
AcDbCircle
 10
140.8001171859
 20
1489.6241419015
 30
0.0
 40
55.0
  0
LINE
  5
98
330
1F
100
AcDbEntity
  8
0
  6
Continuous
 62
     7
370
    25
100
AcDbLine
 10
140.8001171859
 20
1777.1241419015
 30
0.0
 11
318.3001171859
 21
1777.1241419015
 31
0.0
  0
LINE
  5
99
330
1F
100
AcDbEntity
  8
0
  6
Continuous
 62
     7
370
    25
100
AcDbLine
 10
-36.6998828141
 20
1777.1241419015
 30
0.0
 11
140.8001171859
 21
1777.1241419015
 31
0.0
  0
LINE
  5
9A
330
1F
100
AcDbEntity
  8
0
  6
Continuous
 62
     7
370
    25
100
AcDbLine
 10
140.8001171859
 20
1202.1241419015
 30
0.0
 11
318.3001171859
 21
1202.1241419015
 31
0.0
  0
LINE
  5
9B
330
1F
100
AcDbEntity
  8
0
  6
Continuous
 62
     7
370
    25
100
AcDbLine
 10
-36.6998828141
 20
1202.1241419015
 30
0.0
 11
140.8001171859
 21
1202.1241419015
 31
0.0
  0
INSERT
  5
A7
330
1F
100
AcDbEntity
  8
FORMAT
100
AcDbBlockReference
  2
SW_CENTERMARKSYMBOL_1
 10
140.8001171859
 20
1489.6241419015
 30
0.0
  0
LINE
  5
A8
330
1F
100
AcDbEntity
  8
0
  6
Continuous
 62
     7
370
    25
100
AcDbLine
 10
-580.5530641733
 20
655.6932636363
 30
0.0
 11
-1155.5530641733
 21
655.6932636363
 31
0.0
  0
LINE
  5
A9
330
1F
100
AcDbEntity
  8
0
  6
Continuous
 62
     7
370
    25
100
AcDbLine
 10
-813.0742914937
 20
300.6932636363
 30
0.0
 11
-580.5530641733
 21
300.6932636363
 31
0.0
  0
LINE
  5
AA
330
1F
100
AcDbEntity
  8
0
  6
Continuous
 62
     7
370
    25
100
AcDbLine
 10
-1155.5530641733
 20
300.6932636363
 30
0.0
 11
-923.0530641733
 21
300.6932636363
 31
0.0
  0
LINE
  5
AB
330
1F
100
AcDbEntity
  8
0
  6
Continuous
 62
     7
370
    25
100
AcDbLine
 10
-923.0530641733
 20
300.6932636363
 30
0.0
 11
-923.0530641733
 21
178.1932636363
 31
0.0
  0
LINE
  5
AC
330
1F
100
AcDbEntity
  8
0
  6
Continuous
 62
     7
370
    25
100
AcDbLine
 10
-813.0530641733
 20
178.1932636363
 30
0.0
 11
-813.0530641733
 21
300.6998404876
 31
0.0
  0
SPLINE
  5
AD
330
1F
100
AcDbEntity
  8
0
  6
Continuous
 62
     7
370
    25
100
AcDbSpline
210
0.0
220
0.0
230
1.0
 70
     8
 71
     3
 72
    45
 73
    41
 74
     0
 42
0.00000001
 43
0.00000001
 40
0.0
 40
0.0
 40
0.0
 40
0.0
 40
0.0034548892230402
 40
0.0300152685164672
 40
0.056575923109721
 40
0.0817530144561062
 40
0.1069306164238488
 40
0.1328062781863042
 40
0.1586825941743141
 40
0.1844820756803563
 40
0.2102820406291029
 40
0.2367761556642422
 40
0.2632704213002663
 40
0.2900491468044055
 40
0.3168275398873368
 40
0.3443891628103208
 40
0.3719499663973899
 40
0.3985821125758726
 40
0.4252134475590379
 40
0.4526920507813723
 40
0.4801700792253226
 40
0.5056337613323976
 40
0.5310974979777403
 40
0.5573236095968412
 40
0.583550278264369
 40
0.6086899572496401
 40
0.6338302889801356
 40
0.6596481921276651
 40
0.6854667086126759
 40
0.7115785545502683
 40
0.7376906883856987
 40
0.7645145955528553
 40
0.7913383333195992
 40
0.8182445494854131
 40
0.8451501780480561
 40
0.8728708174621136
 40
0.9005905921645817
 40
0.9496109532066939
 40
0.9748055709984688
 40
1.0
 40
1.0
 40
1.0
 40
1.0
 10
-813.0742914936535
 20
300.6998458052055
 30
0.0
 10
-813.0674551121414
 20
300.6977252363863
 30
0.0
 10
-813.0080622304821
 20
300.6793022310727
 30
0.0
 10
-813.2599839121755
 20
300.7576163110222
 30
0.0
 10
-813.8490743553342
 20
300.9387309031518
 30
0.0
 10
-814.8224390900915
 20
301.2347113205797
 30
0.0
 10
-816.1124134789686
 20
301.6190396439521
 30
0.0
 10
-817.7520967938337
 20
302.0955703493674
 30
0.0
 10
-819.7306597713005
 20
302.6514926779823
 30
0.0
 10
-822.0214617048407
 20
303.2695434731478
 30
0.0
 10
-824.6278080387752
 20
303.9387862787211
 30
0.0
 10
-827.5468939969485
 20
304.6449460420499
 30
0.0
 10
-830.7776219735841
 20
305.3722827191779
 30
0.0
 10
-834.2800081186116
 20
306.095386831588
 30
0.0
 10
-838.0697626876497
 20
306.80117675009
 30
0.0
 10
-842.1209532872936
 20
307.4651385345841
 30
0.0
 10
-846.3632379196681
 20
308.0593330319533
 30
0.0
 10
-850.7230238863991
 20
308.5601829898237
 30
0.0
 10
-855.2097986706056
 20
308.9620221937527
 30
0.0
 10
-859.8469824735006
 20
309.2514302396184
 30
0.0
 10
-864.4837112150749
 20
309.4127590670175
 30
0.0
 10
-869.0304994180336
 20
309.445509240767
 30
0.0
 10
-873.4977019293877
 20
309.3615405742007
 30
0.0
 10
-877.9689776396654
 20
309.1576361131945
 30
0.0
 10
-882.3486730278006
 20
308.8432343295506
 30
0.0
 10
-886.565132837763
 20
308.433106269357
 30
0.0
 10
-890.6347326846031
 20
307.9409346795273
 30
0.0
 10
-894.587095155325
 20
307.3704672085277
 30
0.0
 10
-898.4090753785766
 20
306.7341791779263
 30
0.0
 10
-902.0390681622904
 20
306.0527855557187
 30
0.0
 10
-905.4857591677035
 20
305.3381144657294
 30
0.0
 10
-908.7053708889803
 20
304.6109197365598
 30
0.0
 10
-911.6745192944013
 20
303.8900794330963
 30
0.0
 10
-914.3410545621088
 20
303.2022219086473
 30
0.0
 10
-916.7118415926869
 20
302.5588677381822
 30
0.0
 10
-918.7504888681144
 20
301.9821123067009
 30
0.0
 10
-920.8632841155868
 20
301.3633299306281
 30
0.0
 10
-922.2419408257472
 20
300.9436135888319
 30
0.0
 10
-922.9513819471415
 20
300.7249442740639
 30
0.0
 10
-923.0191701825572
 20
300.7038238225392
 30
0.0
 10
-923.0530641732756
 20
300.6932636363423
 30
0.0
  0
LINE
  5
AE
330
1F
100
AcDbEntity
  8
0
  6
Continuous
 62
     7
370
    25
100
AcDbLine
 10
-1155.5530641733
 20
300.6932636363
 30
0.0
 11
-1155.5530641733
 21
655.6932636363
 31
0.0
  0
LINE
  5
AF
330
1F
100
AcDbEntity
  8
0
  6
Continuous
 62
     7
370
    25
100
AcDbLine
 10
-580.5530641733
 20
300.6932636363
 30
0.0
 11
-580.5530641733
 21
655.6932636363
 31
0.0
  0
LINE
  5
B0
330
1F
100
AcDbEntity
  8
0
  6
Continuous
 62
     7
370
    25
100
AcDbLine
 10
-813.0530641733
 20
178.1932636363
 30
0.0
 11
-923.0530641733
 21
178.1932636363
 31
0.0
  0
LINE
  5
B1
330
1F
100
AcDbEntity
  8
0
  6
Continuous
 62
     7
370
    25
100
AcDbLine
 10
1193.8979187942
 20
300.6932636363
 30
0.0
 11
1426.3979187942
 21
300.6932636363
 31
0.0
  0
LINE
  5
B2
330
1F
100
AcDbEntity
  8
0
  6
Continuous
 62
     7
370
    25
100
AcDbLine
 10
851.3979187942
 20
300.6932636363
 30
0.0
 11
1083.9191461146
 21
300.6932636363
 31
0.0
  0
LINE
  5
B3
330
1F
100
AcDbEntity
  8
0
  6
Continuous
 62
     7
370
    25
100
AcDbLine
 10
1426.3979187942
 20
655.6932636363
 30
0.0
 11
851.3979187942
 21
655.6932636363
 31
0.0
  0
LINE
  5
B4
330
1F
100
AcDbEntity
  8
0
  6
Continuous
 62
     7
370
    25
100
AcDbLine
 10
1083.8979187942
 20
300.6998404876
 30
0.0
 11
1083.8979187942
 21
178.1932636363
 31
0.0
  0
LINE
  5
B5
330
1F
100
AcDbEntity
  8
0
  6
Continuous
 62
     7
370
    25
100
AcDbLine
 10
1193.8979187942
 20
178.1932636363
 30
0.0
 11
1193.8979187942
 21
300.6932636363
 31
0.0
  0
SPLINE
  5
B6
330
1F
100
AcDbEntity
  8
0
  6
Continuous
 62
     7
370
    25
100
AcDbSpline
210
0.0
220
0.0
230
1.0
 70
     8
 71
     3
 72
    45
 73
    41
 74
     0
 42
0.00000001
 43
0.00000001
 40
0.0
 40
0.0
 40
0.0
 40
0.0
 40
0.0256114425435946
 40
0.0512230898510202
 40
0.0775988729489283
 40
0.1039752510513445
 40
0.1295793877733274
 40
0.1551841540787866
 40
0.1814942940264367
 40
0.2078049731578401
 40
0.2341146416569734
 40
0.2604244786561227
 40
0.2874621483497758
 40
0.3144994964721544
 40
0.3414072932533689
 40
0.3683143612595223
 40
0.396050655446481
 40
0.4237859912882512
 40
0.4498802903221183
 40
0.475974098357774
 40
0.5028892076876753
 40
0.5298043520150448
 40
0.5549207975712094
 40
0.5800376971224496
 40
0.6058647006609315
 40
0.6316924283888504
 40
0.6571952526606838
 40
0.6826986719186742
 40
0.7088807843263599
 40
0.7350632094794182
 40
0.7616874054356556
 40
0.7883114614346467
 40
0.815696319446735
 40
0.8430805634496619
 40
0.8698684658165007
 40
0.89665561501695
 40
0.9242834063343734
 40
0.9519104935067579
 40
0.9776827307351036
 40
1.0
 40
1.0
 40
1.0
 40
1.0
 10
1193.897918794222
 20
300.6932636363423
 30
0.0
 10
1193.862993481232
 20
300.704147363379
 30
0.0
 10
1193.793142576023
 20
300.725914904468
 30
0.0
 10
1193.228544201686
 20
300.8999104745233
 30
0.0
 10
1192.316015192141
 20
301.1782145700715
 30
0.0
 10
1191.034577719572
 20
301.5612635716936
 30
0.0
 10
1189.421874363037
 20
302.0315551526237
 30
0.0
 10
1187.485603057747
 20
302.5781509872876
 30
0.0
 10
1185.211144745931
 20
303.1952806513414
 30
0.0
 10
1182.60776531043
 20
303.8675959900481
 30
0.0
 10
1179.710852471852
 20
304.5728174461617
 30
0.0
 10
1176.512225841763
 20
305.298720263091
 30
0.0
 10
1173.020497331412
 20
306.0265265890836
 30
0.0
 10
1169.25798851961
 20
306.7345086525683
 30
0.0
 10
1165.279141559953
 20
307.3954066215936
 30
0.0
 10
1161.069832714747
 20
307.9972828256648
 30
0.0
 10
1156.643100517555
 20
308.5186785025789
 30
0.0
 10
1152.118666131215
 20
308.9327049357679
 30
0.0
 10
1147.583182022039
 20
309.2253363177975
 30
0.0
 10
1143.029170012941
 20
309.3999369393869
 30
0.0
 10
1138.395001183954
 20
309.4497901510009
 30
0.0
 10
1133.821373065135
 20
309.3733001215568
 30
0.0
 10
1129.390663631317
 20
309.1795899290105
 30
0.0
 10
1125.088182433872
 20
308.8833895864812
 30
0.0
 10
1120.84274423316
 20
308.4833225680972
 30
0.0
 10
1116.702554646778
 20
307.9920753223342
 30
0.0
 10
1112.732599239394
 20
307.4271352044688
 30
0.0
 10
1108.919074321751
 20
306.8005969095146
 30
0.0
 10
1105.274640805119
 20
306.1242545490926
 30
0.0
 10
1101.806139406195
 20
305.4117328166959
 30
0.0
 10
1098.572679284831
 20
304.6872660945144
 30
0.0
 10
1095.568914614346
 20
303.963303634129
 30
0.0
 10
1092.844667884382
 20
303.2645101124786
 30
0.0
 10
1090.444623750491
 20
302.6157118481182
 30
0.0
 10
1088.407310361831
 20
302.0414082018623
 30
0.0
 10
1086.719725216642
 20
301.5491382908116
 30
0.0
 10
1085.395191047719
 20
301.1527286396044
 30
0.0
 10
1084.489942442583
 20
300.8761474139496
 30
0.0
 10
1083.975943976892
 20
300.7176066519531
 30
0.0
 10
1083.937149682762
 20
300.7054755701673
 30
0.0
 10
1083.9191461146
 20
300.6998458052055
 30
0.0
  0
LINE
  5
B7
330
1F
100
AcDbEntity
  8
0
  6
Continuous
 62
     7
370
    25
100
AcDbLine
 10
1426.3979187942
 20
655.6932636363
 30
0.0
 11
1426.3979187942
 21
300.6932636363
 31
0.0
  0
LINE
  5
B8
330
1F
100
AcDbEntity
  8
0
  6
Continuous
 62
     7
370
    25
100
AcDbLine
 10
851.3979187942
 20
655.6932636363
 30
0.0
 11
851.3979187942
 21
300.6932636363
 31
0.0
  0
LINE
  5
B9
330
1F
100
AcDbEntity
  8
0
  6
Continuous
 62
     7
370
    25
100
AcDbLine
 10
1193.8979187942
 20
178.1932636363
 30
0.0
 11
1083.8979187942
 21
178.1932636363
 31
0.0
  0
LINE
  5
BA
330
1F
100
AcDbEntity
  8
0
  6
Continuous
 62
     7
370
    25
100
AcDbLine
 10
-36.6998828141
 20
-825.6604609798
 30
0.0
 11
-36.6998828141
 21
-1400.6604609798
 31
0.0
  0
LINE
  5
BB
330
1F
100
AcDbEntity
  8
0
  6
Continuous
 62
     7
370
    25
100
AcDbLine
 10
318.3001171859
 20
-1400.6604609798
 30
0.0
 11
318.3001171859
 21
-825.6604609798
 31
0.0
  0
LINE
  5
BC
330
1F
100
AcDbEntity
  8
0
  6
Continuous
 62
     7
370
    25
100
AcDbLine
 10
318.3001171859
 20
-1400.6604609798
 30
0.0
 11
-36.6998828141
 21
-1400.6604609798
 31
0.0
  0
LINE
  5
BD
330
1F
100
AcDbEntity
  8
0
  6
Continuous
 62
     7
370
    25
100
AcDbLine
 10
318.3001171859
 20
-825.6604609798
 30
0.0
 11
-36.6998828141
 21
-825.6604609798
 31
0.0
  0
LINE
  5
BE
330
1F
100
AcDbEntity
  8
0
  6
Continuous
 62
     7
370
    25
100
AcDbLine
 10
1427.1311349016
 20
-823.0639251974
 30
0.0
 11
1020.5447357193
 21
-588.3465930484
 31
0.0
  0
LINE
  5
BF
330
1F
100
AcDbEntity
  8
0
  6
Continuous
 62
     7
370
    25
100
AcDbLine
 10
843.0591606764
 20
-895.7939391935
 30
0.0
 11
1080.095147789
 21
-1032.6319018757
 31
0.0
  0
LINE
  5
C0
330
1F
100
AcDbEntity
  8
0
  6
Continuous
 62
     7
370
    25
100
AcDbLine
 10
1190.095147789
 20
-1096.1335502051
 30
0.0
 11
1249.6455598587
 21
-1130.5112713425
 31
0.0
  0
LINE
  5
C1
330
1F
100
AcDbEntity
  8
0
  6
Continuous
 62
     7
370
    25
100
AcDbLine
 10
1080.095147789
 20
-1000.8435244749
 30
0.0
 11
1080.095147789
 21
-1104.3911757612
 31
0.0
  0
LINE
  5
C2
330
1F
100
AcDbEntity
  8
0
  6
Continuous
 62
     7
370
    25
100
AcDbLine
 10
1190.095147789
 20
-1104.3911757612
 30
0.0
 11
1190.095147789
 21
-1000.8421566881
 31
0.0
  0
SPLINE
  5
C3
330
1F
100
AcDbEntity
  8
0
  6
Continuous
 62
     7
370
    25
100
AcDbSpline
210
0.0
220
0.0
230
1.0
 70
     8
 71
     3
 72
    15
 73
    11
 74
     0
 42
0.00000001
 43
0.00000001
 40
0.0
 40
0.0
 40
0.0
 40
0.0
 40
0.1384909126891515
 40
0.2774423426129928
 40
0.4159509442378289
 40
0.5542595438068922
 40
0.6929984401507271
 40
0.831333440375044
 40
0.9734717696424164
 40
1.0
 40
1.0
 40
1.0
 40
1.0
 10
1096.204274823734
 20
-981.9137032300323
 30
0.0
 10
1094.831766857176
 20
-982.7424087935452
 30
0.0
 10
1092.0821869887
 20
-984.4025755757043
 30
0.0
 10
1088.602286334974
 20
-986.9907489348644
 30
0.0
 10
1085.642350365013
 20
-989.6181388957818
 30
0.0
 10
1083.305362670803
 20
-992.2699552223213
 30
0.0
 10
1081.560651250624
 20
-994.9330707786863
 30
0.0
 10
1080.488913608771
 20
-997.6240256892709
 30
0.0
 10
1080.031323710328
 20
-999.5931615542645
 30
0.0
 10
1080.134100884545
 20
-1000.672631621694
 30
0.0
 10
1080.150265894131
 20
-1000.84241293861
 30
0.0
  0
SPLINE
  5
C4
330
1F
100
AcDbEntity
  8
0
  6
Continuous
 62
     7
370
    25
100
AcDbSpline
210
0.0
220
0.0
230
1.0
 70
     8
 71
     3
 72
    29
 73
    25
 74
     0
 42
0.00000001
 43
0.00000001
 40
0.0
 40
0.0
 40
0.0
 40
0.0
 40
0.0177163797929919
 40
0.0659670402847456
 40
0.1143694814194604
 40
0.1626116794813972
 40
0.210653190589849
 40
0.2588577799799474
 40
0.3068886977888288
 40
0.3527788927036015
 40
0.3988215533011769
 40
0.4447162171813661
 40
0.4899609011060881
 40
0.5353437775262466
 40
0.5805979823552341
 40
0.6276021634379705
 40
0.6747479579649269
 40
0.721753135239208
 40
0.7702566690468726
 40
0.8189171067147789
 40
0.8674098128685148
 40
0.9115649953685075
 40
0.9558495876379187
 40
1.0
 40
1.0
 40
1.0
 40
1.0
 10
1190.017133929356
 20
-1000.84155091276
 30
0.0
 10
1190.037355377408
 20
-1000.304322699292
 30
0.0
 10
1190.112650053513
 20
-998.3039504102586
 30
0.0
 10
1189.522293703898
 20
-994.8457123054035
 30
0.0
 10
1188.248965058968
 20
-990.574583457362
 30
0.0
 10
1186.254834862772
 20
-986.4935702861519
 30
0.0
 10
1183.593880410023
 20
-982.695543421715
 30
0.0
 10
1180.309339630975
 20
-979.239391445883
 30
0.0
 10
1176.497683647922
 20
-976.2267414298088
 30
0.0
 10
1172.21776657267
 20
-973.7132306374361
 30
0.0
 10
1167.572557729697
 20
-971.6837284616832
 30
0.0
 10
1162.578283666482
 20
-970.1256020264954
 30
0.0
 10
1157.295780871441
 20
-969.057910506264
 30
0.0
 10
1151.80377719335
 20
-968.4427293794321
 30
0.0
 10
1146.064218441497
 20
-968.2568963672029
 30
0.0
 10
1140.129499455239
 20
-968.5091340859782
 30
0.0
 10
1134.065948447265
 20
-969.1709488869054
 30
0.0
 10
1127.947561753513
 20
-970.2159193277438
 30
0.0
 10
1121.84526174757
 20
-971.6277931335758
 30
0.0
 10
1115.837756698122
 20
-973.3664498123068
 30
0.0
 10
1110.23054183044
 20
-975.315031846246
 30
0.0
 10
1105.094432426594
 20
-977.4110972903487
 30
0.0
 10
1100.40562239054
 20
-979.5881187937928
 30
0.0
 10
1097.603306721487
 20
-981.1392929353633
 30
0.0
 10
1096.204274823734
 20
-981.9137032300323
 30
0.0
  0
LWPOLYLINE
  5
C5
330
1F
100
AcDbEntity
  8
0
  6
Continuous
 62
     7
370
    25
100
AcDbPolyline
 90
      142
 70
   128
 43
0.0
 10
931.8019481979
 20
-887.0062602306
 10
937.3930882805
 20
-883.6346852642
 10
942.9731276721
 20
-879.9820472473
 10
948.5309877208
 20
-876.0555981548
 10
954.0556338101
 20
-871.8631335878
 10
959.5360972665
 20
-867.4129772966
 10
964.9614971372
 20
-862.7139646546
 10
970.3210617928
 20
-857.7754251166
 10
975.6041503139
 20
-852.6071636955
 10
980.8002736171
 20
-847.2194414961
 10
985.8991152808
 20
-841.622955342
 10
990.8905520267
 20
-835.8288165385
 10
995.7646738192
 20
-829.8485288119
 10
1000.5118035407
 20
-823.6939654698
 10
1005.1225162044
 20
-817.3773458281
 10
1009.5876576673
 20
-810.9112109504
 10
1013.8983628042
 20
-804.308398749
 10
1018.046073109
 20
-797.5820184963
 10
1022.0225536871
 20
-790.7454247977
 10
1025.8199096041
 20
-783.8121910771
 10
1029.4306015615
 20
-776.7960826283
 10
1032.8474608645
 20
-769.7110292852
 10
1036.0637036554
 20
-762.5710977654
 10
1039.0729443818
 20
-755.390463742
 10
1041.8692084747
 20
-748.1833836992
 10
1044.4469442106
 20
-740.9641666273
 10
1046.8010337338
 20
-733.7471456136
 10
1048.9268032176
 20
-726.5466493852
 10
1050.8200321433
 20
-719.3769738609
 10
1052.4769616802
 20
-712.2523537678
 10
1053.894302148
 20
-705.1869343796
 10
1055.0692395484
 20
-698.1947434325
 10
1055.999441152
 20
-691.2896632744
 10
1056.6830601297
 20
-684.4854033027
 10
1057.1187392191
 20
-677.7954727459
 10
1057.3056134199
 20
-671.2331538418
 10
1057.2433117105
 20
-664.8114754671
 10
1056.9319577852
 20
-658.5431872698
 10
1056.3721698086
 20
-652.4407343559
 10
1055.5650591876
 20
-646.5162325809
 10
1054.5122283659
 20
-640.7814444946
 10
1053.2157676415
 20
-635.2477559878
 10
1051.6782510172
 20
-629.926153687
 10
1049.9027310899
 20
-624.8272031408
 10
1047.8927329901
 20
-619.9610278437
 10
1045.652247383
 20
-615.3372891362
 10
1043.1857225453
 20
-610.9651670235
 10
1040.4980555339
 20
-606.8533419495
 10
1037.5945824627
 20
-603.0099775621
 10
1034.4810679088
 20
-599.4427045055
 10
1031.1636934671
 20
-596.1586052704
 10
1027.6490454776
 20
-593.1642001316
 10
1023.9441019485
 20
-590.4654342035
 10
1020.0562187022
 20
-588.0676656359
 10
1015.993114771
 20
-585.9756549765
 10
1011.7628570716
 20
-584.1935557186
 10
1007.3738443893
 20
-582.7249060555
 10
1002.8347907023
 20
-581.5726218551
 10
998.1547078816
 20
-580.738990871
 10
993.3428877985
 20
-580.2256682004
 10
988.4088838763
 20
-580.0336729979
 10
983.3624921231
 20
-580.1633864523
 10
978.2137316826
 20
-580.6145510294
 10
972.9728249421
 20
-581.3862709838
 10
967.6501772368
 20
-582.4770141369
 10
962.256356191
 20
-583.8846149191
 10
956.8020707371
 20
-585.6062786695
 10
951.298149854
 20
-587.6385871839
 10
945.7555210672
 20
-589.977505502
 10
940.185188753
 20
-592.618389918
 10
934.5982122908
 20
-595.5559972002
 10
929.005684105
 20
-598.7844950013
 10
923.4187076427
 20
-602.2974734379
 10
917.8483753285
 20
-606.0879578163
 10
912.3057465417
 20
-610.1484224808
 10
906.8018256587
 20
-614.4708057545
 10
901.3475402048
 20
-619.0465259456
 10
895.9537191589
 20
-623.8664983853
 10
890.6310714536
 20
-628.9211534643
 10
885.3901647131
 20
-634.2004556329
 10
880.2414042726
 20
-639.6939233253
 10
875.1950125194
 20
-645.3906497699
 10
870.2610085972
 20
-651.2793246437
 10
865.4491885141
 20
-657.3482565278
 10
860.7691056934
 20
-663.5853961197
 10
856.2300520064
 20
-669.9783601561
 10
851.8410393241
 20
-676.5144559987
 10
847.6107816247
 20
-683.1807068341
 10
843.5476776935
 20
-689.9638774384
 10
839.6597944472
 20
-696.8505004542
 10
835.9548509181
 20
-703.826903129
 10
832.4402029286
 20
-710.8792344611
 10
829.1228284869
 20
-717.9934926993
 10
826.009313933
 20
-725.1555531425
 10
823.1058408619
 20
-732.3511961827
 10
820.4181738504
 20
-739.5661355365
 10
817.9516490127
 20
-746.7860466099
 10
815.7111634056
 20
-753.9965949376
 10
813.7011653058
 20
-761.1834646433
 10
811.9256453785
 20
-768.3323868627
 10
810.3881287542
 20
-775.4291680722
 10
809.0916680298
 20
-782.4597182697
 10
808.0388372081
 20
-789.4100789487
 10
807.2317265872
 20
-796.2664508112
 10
806.6719386105
 20
-803.0152211657
 10
806.3605846852
 20
-809.6429909533
 10
806.2982829759
 20
-816.1366013505
 10
806.4851571766
 20
-822.483159895
 10
806.920836266
 20
-828.6700660824
 10
807.6044552437
 20
-834.6850363829
 10
808.5346568473
 20
-840.51612863
 10
809.7095942478
 20
-846.1517657296
 10
811.1269347156
 20
-851.580758646
 10
812.7838642524
 20
-856.7923286162
 10
814.6770931781
 20
-861.7761285506
 10
816.8028626619
 20
-866.5222635756
 10
819.1569521851
 20
-871.0213106794
 10
821.7346879211
 20
-875.2643374206
 10
824.530952014
 20
-879.2429196622
 10
827.5401927403
 20
-882.9491582976
 10
830.7564355312
 20
-886.3756949329
 10
834.1732948343
 20
-889.5157264968
 10
837.7839867916
 20
-892.3630187474
 10
841.5813427087
 20
-894.9119186493
 10
845.5578232867
 20
-897.1573655979
 10
849.7055335916
 20
-899.094901466
 10
854.0162387285
 20
-900.7206794555
 10
858.4813801913
 20
-902.0314717347
 10
863.0920928551
 20
-903.0246758469
 10
867.8392225765
 20
-903.6983198773
 10
872.713344369
 20
-904.0510663679
 10
877.7047811149
 20
-904.0822149732
 10
882.8036227786
 20
-903.7917038507
 10
887.9997460819
 20
-903.1801097832
 10
893.2828346029
 20
-902.2486470341
 10
898.6423992585
 20
-900.9991649366
 10
904.0677991292
 20
-899.4341442216
 10
909.5482625856
 20
-897.5566920929
 10
915.0729086749
 20
-895.370536058
 10
920.6307687237
 20
-892.8800165273
 10
926.2108081152
 20
-890.0900781967
 10
931.8019481979
 20
-887.0062602306
  0
LWPOLYLINE
  5
C6
330
1F
100
AcDbEntity
  8
0
  6
Continuous
 62
     7
370
    25
100
AcDbPolyline
 90
       54
 70
   128
 43
0.0
 10
1338.3883473801
 20
-1121.7235923797
 10
1343.9794874628
 20
-1118.3520174132
 10
1349.5595268543
 20
-1114.6993793964
 10
1355.1173869031
 20
-1110.7729303038
 10
1360.6420329924
 20
-1106.5804657368
 10
1366.1224964488
 20
-1102.1303094456
 10
1371.5478963194
 20
-1097.4312968037
 10
1376.9074609751
 20
-1092.4927572656
 10
1382.1905494961
 20
-1087.3244958445
 10
1387.3866727994
 20
-1081.9367736451
 10
1392.4855144631
 20
-1076.340287491
 10
1397.476951209
 20
-1070.5461486875
 10
1402.3510730015
 20
-1064.5658609609
 10
1407.0982027229
 20
-1058.4112976188
 10
1411.7089153867
 20
-1052.0946779771
 10
1416.1740568495
 20
-1045.6285430995
 10
1420.4847619864
 20
-1039.0257308981
 10
1424.6324722913
 20
-1032.2993506453
 10
1428.6089528693
 20
-1025.4627569467
 10
1432.4063087864
 20
-1018.5295232261
 10
1436.0170007437
 20
-1011.5134147773
 10
1439.4338600468
 20
-1004.4283614342
 10
1442.6501028377
 20
-997.2884299144
 10
1445.659343564
 20
-990.107795891
 10
1448.4556076569
 20
-982.9007158482
 10
1451.0333433928
 20
-975.6814987763
 10
1453.3874329161
 20
-968.4644777626
 10
1455.5132023999
 20
-961.2639815342
 10
1457.4064313256
 20
-954.0943060099
 10
1459.0633608624
 20
-946.9696859168
 10
1460.4807013302
 20
-939.9042665286
 10
1461.6556387307
 20
-932.9120755815
 10
1462.5858403343
 20
-926.0069954234
 10
1463.2694593119
 20
-919.2027354518
 10
1463.7051384014
 20
-912.5128048949
 10
1463.8920126021
 20
-905.9504859908
 10
1463.8297108927
 20
-899.5288076161
 10
1463.5183569675
 20
-893.2605194188
 10
1462.9585689908
 20
-887.158066505
 10
1462.1514583699
 20
-881.2335647299
 10
1461.0986275482
 20
-875.4987766436
 10
1459.8021668238
 20
-869.9650881369
 10
1458.2646501994
 20
-864.643485836
 10
1456.4891302722
 20
-859.5445352899
 10
1454.4791321724
 20
-854.6783599927
 10
1452.2386465653
 20
-850.0546212852
 10
1449.7721217276
 20
-845.6824991726
 10
1447.0844547161
 20
-841.5706740985
 10
1444.1809816449
 20
-837.7273097111
 10
1441.0674670911
 20
-834.1600366546
 10
1437.7500926494
 20
-830.8759374194
 10
1434.2354446599
 20
-827.8815322807
 10
1430.5305011308
 20
-825.1827663525
 10
1427.1311349016
 20
-823.0639251974
  0
LWPOLYLINE
  5
C7
330
1F
100
AcDbEntity
  8
0
  6
Continuous
 62
     7
370
    25
100
AcDbPolyline
 90
       19
 70
   128
 43
0.0
 10
1249.6455598587
 20
-1130.5112713425
 10
1252.1442224689
 20
-1131.8746977469
 10
1256.2919327738
 20
-1133.812233615
 10
1260.6026379107
 20
-1135.4380116046
 10
1265.0677793736
 20
-1136.7488038838
 10
1269.6784920373
 20
-1137.742007996
 10
1274.4256217588
 20
-1138.4156520263
 10
1279.2997435513
 20
-1138.7683985169
 10
1284.2911802972
 20
-1138.7995471223
 10
1289.3900219608
 20
-1138.5090359997
 10
1294.5861452641
 20
-1137.8974419322
 10
1299.8692337852
 20
-1136.9659791832
 10
1305.2287984408
 20
-1135.7164970856
 10
1310.6541983115
 20
-1134.1514763706
 10
1316.1346617679
 20
-1132.2740242419
 10
1321.6593078572
 20
-1130.087868207
 10
1327.2171679059
 20
-1127.5973486763
 10
1332.7972072975
 20
-1124.8074103457
 10
1338.3883473801
 20
-1121.7235923797
  0
LWPOLYLINE
  5
C8
330
1F
100
AcDbEntity
  8
0
  6
Continuous
 62
     7
370
    25
100
AcDbPolyline
 90
      133
 70
   128
 43
0.0
 10
931.8019481979
 20
-869.7772490999
 10
937.0641036692
 20
-866.5948227115
 10
942.3143386658
 20
-863.1303081512
 10
947.540759717
 20
-859.3915536586
 10
952.7315272979
 20
-855.3870287152
 10
957.8748826504
 20
-851.1258048581
 10
962.9591744205
 20
-846.6175351297
 10
967.972885052
 20
-841.8724322111
 10
972.9046568777
 20
-836.9012452865
 10
977.7433178482
 20
-831.7152356932
 10
982.4779068401
 20
-826.326151411
 10
987.0976984866
 20
-820.7462004491
 10
991.5922274738
 20
-814.988023191
 10
995.9513122477
 20
-809.0646637604
 10
1000.1650780795
 20
-802.9895404714
 10
1004.2239794342
 20
-796.7764154323
 10
1008.1188215948
 20
-790.4393633697
 10
1011.840781491
 20
-783.9927397446
 10
1015.3814276866
 20
-777.4511482331
 10
1018.7327394791
 20
-770.8294076439
 10
1021.8871250695
 20
-764.1425183493
 10
1024.8374387598
 20
-757.4056283042
 10
1027.5769971407
 20
-750.6339987313
 10
1030.0995942312
 20
-743.8429695497
 10
1032.3995155375
 20
-737.0479246247
 10
1034.4715509982
 20
-730.2642569185
 10
1036.3110067866
 20
-723.5073336204
 10
1037.9137159435
 20
-716.7924613348
 10
1039.2760478174
 20
-710.1348514073
 10
1040.3949162883
 20
-703.5495854657
 10
1041.2677867593
 20
-697.0515812553
 10
1041.8926818981
 20
-690.6555588456
 10
1042.268186116
 20
-684.3760072846
 10
1042.3934487754
 20
-678.2271517764
 10
1042.268186116
 20
-672.2229214562
 10
1041.8926818981
 20
-666.376917837
 10
1041.2677867593
 20
-660.7023839972
 10
1040.3949162883
 20
-655.2121745811
 10
1039.2760478174
 20
-649.9187266789
 10
1037.9137159435
 20
-644.8340316525
 10
1036.3110067866
 20
-639.9696079717
 10
1034.4715509982
 20
-635.3364751207
 10
1032.3995155375
 20
-630.9451286354
 10
1030.0995942312
 20
-626.8055163282
 10
1027.5769971407
 20
-622.9270157524
 10
1024.8374387598
 20
-619.3184129591
 10
1021.8871250695
 20
-615.9878825944
 10
1018.7327394791
 20
-612.9429693808
 10
1015.3814276866
 20
-610.1905710261
 10
1011.840781491
 20
-607.7369225977
 10
1008.1188215948
 20
-605.5875823985
 10
1004.2239794342
 20
-603.7474193755
 10
1000.1650780795
 20
-602.2206020897
 10
995.9513122477
 20
-601.0105892733
 10
991.5922274738
 20
-600.1201219945
 10
987.0976984866
 20
-599.5512174482
 10
982.4779068401
 20
-599.3051643861
 10
977.7433178482
 20
-599.3825201976
 10
972.9046568777
 20
-599.7831096468
 10
967.972885052
 20
-600.5060252697
 10
962.9591744205
 20
-601.5496294301
 10
957.8748826504
 20
-602.9115580288
 10
952.7315272979
 20
-604.5887258595
 10
947.540759717
 20
-606.5773335976
 10
942.3143386658
 20
-608.8728764071
 10
937.0641036692
 20
-611.470154145
 10
931.8019481979
 20
-614.363283142
 10
926.5397927266
 20
-617.5457095303
 10
921.2895577299
 20
-621.0102240907
 10
916.0631366788
 20
-624.7489785833
 10
910.8723690979
 20
-628.7535035266
 10
905.7290137453
 20
-633.0147273838
 10
900.6447219752
 20
-637.5229971121
 10
895.6310113437
 20
-642.2681000308
 10
890.699239518
 20
-647.2392869553
 10
885.8605785475
 20
-652.4252965486
 10
881.1259895556
 20
-657.8143808308
 10
876.5061979091
 20
-663.3943317928
 10
872.011668922
 20
-669.1525090508
 10
867.652584148
 20
-675.0758684815
 10
863.4388183162
 20
-681.1509917705
 10
859.3799169615
 20
-687.3641168095
 10
855.485074801
 20
-693.7011688722
 10
851.7631149048
 20
-700.1477924972
 10
848.2224687092
 20
-706.6893840087
 10
844.8711569166
 20
-713.3111245979
 10
841.7167713262
 20
-719.9980138926
 10
838.7664576359
 20
-726.7349039377
 10
836.026899255
 20
-733.5065335105
 10
833.5043021646
 20
-740.2975626921
 10
831.2043808582
 20
-747.0926076172
 10
829.1323453975
 20
-753.8762753233
 10
827.2928896092
 20
-760.6331986215
 10
825.6901804522
 20
-767.348070907
 10
824.3278485783
 20
-774.0056808345
 10
823.2089801074
 20
-780.5909467762
 10
822.3361096364
 20
-787.0889509866
 10
821.7112144977
 20
-793.4849733962
 10
821.3357102797
 20
-799.7645249572
 10
821.2104476203
 20
-805.9133804655
 10
821.3357102797
 20
-811.9176107856
 10
821.7112144977
 20
-817.7636144048
 10
822.3361096364
 20
-823.4381482446
 10
823.2089801074
 20
-828.9283576607
 10
824.3278485783
 20
-834.221805563
 10
825.6901804522
 20
-839.3065005893
 10
827.2928896092
 20
-844.1709242701
 10
829.1323453975
 20
-848.8040571212
 10
831.2043808582
 20
-853.1954036064
 10
833.5043021646
 20
-857.3350159136
 10
836.026899255
 20
-861.2135164895
 10
838.7664576359
 20
-864.8221192827
 10
841.7167713262
 20
-868.1526496474
 10
844.8711569166
 20
-871.197562861
 10
848.2224687092
 20
-873.9499612158
 10
851.7631149048
 20
-876.4036096442
 10
855.485074801
 20
-878.5529498433
 10
859.3799169615
 20
-880.3931128663
 10
863.4388183162
 20
-881.9199301522
 10
867.652584148
 20
-883.1299429686
 10
872.011668922
 20
-884.0204102473
 10
876.5061979091
 20
-884.5893147936
 10
881.1259895556
 20
-884.8353678557
 10
885.8605785475
 20
-884.7580120443
 10
890.699239518
 20
-884.3574225951
 10
895.6310113437
 20
-883.6345069721
 10
900.6447219752
 20
-882.5909028117
 10
905.7290137453
 20
-881.228974213
 10
910.8723690979
 20
-879.5518063823
 10
916.0631366788
 20
-877.5631986442
 10
921.2895577299
 20
-875.2676558348
 10
926.5397927266
 20
-872.6703780968
 10
931.8019481979
 20
-869.7772490999
  0
LWPOLYLINE
  5
C9
330
1F
100
AcDbEntity
  8
0
  6
Continuous
 62
     7
370
    25
100
AcDbPolyline
 90
       74
 70
   128
 43
0.0
 10
1169.3191159984
 20
-1124.1482520673
 10
1172.1344813942
 20
-1122.3767017387
 10
1174.6756205229
 20
-1120.4719928683
 10
1176.9237196794
 20
-1118.4482272543
 10
1178.8621347242
 20
-1116.3203881492
 10
1180.4765143105
 20
-1114.1042293292
 10
1181.7549061365
 20
-1111.8161584589
 10
1182.6878454366
 20
-1109.4731156144
 10
1183.2684250545
 20
-1107.0924478653
 10
1183.4923465819
 20
-1104.6917808427
 10
1183.3579521821
 20
-1102.2888882451
 10
1182.8662368643
 20
-1099.9015602489
 10
1182.0208411165
 20
-1097.5474717951
 10
1180.8280239533
 20
-1095.244051731
 10
1179.2966165754
 20
-1093.008353773
 10
1177.4379569874
 20
-1090.8569302465
 10
1175.2658060545
 20
-1088.8057095386
 10
1172.7962456223
 20
-1086.8698781697
 10
1170.0475594522
 20
-1085.063768358
 10
1167.0400978549
 20
-1083.4007519086
 10
1163.7961270239
 20
-1081.8931412136
 10
1160.3396641842
 20
-1080.5520980949
 10
1156.6962997774
 20
-1079.3875511668
 10
1152.8930079989
 20
-1078.4081223271
 10
1148.9579470902
 20
-1077.6210629245
 10
1144.9202508658
 20
-1077.0322000712
 10
1140.8098130156
 20
-1076.6458935018
 10
1136.6570657835
 20
-1076.4650032951
 10
1132.492754657
 20
-1076.4908686988
 10
1128.3477107388
 20
-1076.7232982146
 10
1124.2526224838
 20
-1077.1605710155
 10
1120.2378084927
 20
-1077.7994496869
 10
1116.3329930436
 20
-1078.6352041945
 10
1112.5670860239
 20
-1079.6616469043
 10
1108.9679688917
 20
-1080.8711783937
 10
1105.5622882509
 20
-1082.2548437147
 10
1102.3752585695
 20
-1083.8023986933
 10
1099.4304755002
 20
-1085.502385774
 10
1096.7497411866
 20
-1087.3422188471
 10
1094.3529028476
 20
-1089.3082764323
 10
1092.2577058356
 20
-1091.3860025271
 10
1090.4796622564
 20
-1093.5600143744
 10
1089.0319361225
 20
-1095.8142163511
 10
1087.9252458916
 20
-1098.1319191345
 10
1087.1677851111
 20
-1100.495963264
 10
1086.7651617556
 20
-1102.8888461841
 10
1086.7203567075
 20
-1105.2928518267
 10
1087.0337016877
 20
-1107.6901817752
 10
1087.7028767996
 20
-1110.0630870374
 10
1088.7229277048
 20
-1112.3939994529
 10
1090.0863023034
 20
-1114.6656617617
 10
1091.7829066466
 20
-1116.861255371
 10
1093.8001796697
 20
-1118.9645248737
 10
1096.1231861889
 20
-1120.9598983983
 10
1098.7347274767
 20
-1122.8326028974
 10
1101.6154685951
 20
-1124.5687735221
 10
1104.7440815447
 20
-1126.1555562725
 10
1108.0974031699
 20
-1127.5812031642
 10
1111.6506066506
 20
-1128.8351592066
 10
1115.3773853114
 20
-1129.9081405477
 10
1119.2501473869
 20
-1130.7922032091
 10
1123.2402203017
 20
-1131.4808019002
 10
1127.3180629519
 20
-1131.9688384773
 10
1131.4534844173
 20
-1132.2526996881
 10
1135.6158674842
 20
-1132.3302839237
 10
1139.7743953247
 20
-1132.2010167774
 10
1143.8982796535
 20
-1131.8658552981
 10
1147.956988674
 20
-1131.3272809041
 10
1151.9204731245
 20
-1130.5892810116
 10
1155.7593887529
 20
-1129.6573195139
 10
1159.4453135709
 20
-1128.5382963276
 10
1162.9509582809
 20
-1127.240496309
 10
1166.2503683159
 20
-1125.7735279153
 10
1169.3191159984
 20
-1124.1482520673
  0
LWPOLYLINE
  5
CA
330
1F
100
AcDbEntity
  8
0
  6
Continuous
 62
     7
370
    25
100
AcDbPolyline
 90
       79
 70
   128
 43
0.0
 10
1173.9860207543
 20
-1126.8423988363
 10
1176.9893247387
 20
-1124.9630235535
 10
1179.7209289096
 20
-1122.9502319437
 10
1182.1631177656
 20
-1120.8170777329
 10
1184.3000527748
 20
-1118.5773952446
 10
1186.1178750937
 20
-1116.2457096793
 10
1187.604795447
 20
-1113.8371429126
 10
1188.7511705856
 20
-1111.3673154242
 10
1189.5495658269
 20
-1108.8522449931
 10
1189.9948032713
 20
-1106.3082428161
 10
1190.0839953832
 20
-1103.7518077237
 10
1189.8165637174
 20
-1101.1995191784
 10
1189.1942426711
 20
-1098.6679297507
 10
1188.2210682349
 20
-1096.1734577696
 10
1186.9033518185
 20
-1093.7322808431
 10
1185.2496393186
 20
-1091.3602309403
 10
1183.2706556952
 20
-1089.072691715
 10
1180.9792354166
 20
-1086.884498737
 10
1178.3902392225
 20
-1084.8098432773
 10
1175.5204577468
 20
-1082.8621802727
 10
1172.3885026235
 20
-1081.0541410653
 10
1169.0146857836
 20
-1079.397451483
 10
1165.4208877237
 20
-1077.9028557935
 10
1161.6304156034
 20
-1076.5800470234
 10
1157.6678520889
 20
-1075.4376040952
 10
1153.5588959252
 20
-1074.4829361897
 10
1149.3301952696
 20
-1073.7222346945
 10
1145.0091748688
 20
-1073.1604330508
 10
1140.6238581979
 20
-1072.8011747577
 10
1136.2026857186
 20
-1072.6467897433
 10
1131.7743304308
 20
-1072.6982792535
 10
1127.3675119178
 20
-1072.9553093591
 10
1123.0108100888
 20
-1073.4162131213
 10
1118.732479827
 20
-1074.0780014023
 10
1114.5602677457
 20
-1074.9363822511
 10
1110.5212322414
 20
-1075.9857887385
 10
1106.6415680092
 20
-1077.2194150609
 10
1102.9464361605
 20
-1078.629260678
 10
1099.4598010431
 20
-1080.2061822001
 10
1096.2042748237
 20
-1081.939952686
 10
1093.2009708392
 20
-1083.8193279688
 10
1090.4693666684
 20
-1085.8321195786
 10
1088.0271778124
 20
-1087.9652737895
 10
1085.8902428032
 20
-1090.2049562777
 10
1084.0724204843
 20
-1092.536641843
 10
1082.585500131
 20
-1094.9452086097
 10
1081.4391249924
 20
-1097.4150360982
 10
1080.6407297511
 20
-1099.9301065293
 10
1080.1954923067
 20
-1102.4741087062
 10
1080.1063001948
 20
-1105.0305437986
 10
1080.3737318605
 20
-1107.5828323439
 10
1080.9960529069
 20
-1110.1144217716
 10
1081.9692273431
 20
-1112.6088937527
 10
1083.2869437595
 20
-1115.0500706792
 10
1084.9406562594
 20
-1117.422120582
 10
1086.9196398828
 20
-1119.7096598073
 10
1089.2110601614
 20
-1121.8978527854
 10
1091.8000563555
 20
-1123.972508245
 10
1094.6698378312
 20
-1125.9201712496
 10
1097.8017929544
 20
-1127.728210457
 10
1101.1756097944
 20
-1129.3849000393
 10
1104.7694078543
 20
-1130.8794957288
 10
1108.5598799746
 20
-1132.2023044989
 10
1112.5224434891
 20
-1133.3447474271
 10
1116.6313996528
 20
-1134.2994153326
 10
1120.8601003084
 20
-1135.0601168278
 10
1125.1811207092
 20
-1135.6219184715
 10
1129.56643738
 20
-1135.9811767646
 10
1133.9876098594
 20
-1136.135561779
 10
1138.4159651472
 20
-1136.0840722688
 10
1142.8227836602
 20
-1135.8270421632
 10
1147.1794854892
 20
-1135.366138401
 10
1151.457815751
 20
-1134.70435012
 10
1155.6300278323
 20
-1133.8459692712
 10
1159.6690633366
 20
-1132.7965627838
 10
1163.5487275688
 20
-1131.5629364615
 10
1167.2438594175
 20
-1130.1530908443
 10
1170.7304945349
 20
-1128.5761693222
 10
1173.9860207543
 20
-1126.8423988363
  0
ENDSEC
  0
SECTION
  2
OBJECTS
  0
DICTIONARY
  5
C
330
0
100
AcDbDictionary
281
     1
  3
ACAD_GROUP
350
D
  3
ACAD_LAYOUT
350
1A
  3
ACAD_MLINESTYLE
350
17
  3
ACAD_PLOTSETTINGS
350
19
  3
ACAD_PLOTSTYLENAME
350
E
  3
ACAD_SCALELIST
350
47
  3
DWGPROPS
350
CB
  0
DICTIONARY
  5
D
102
{ACAD_REACTORS
330
C
102
}
330
C
100
AcDbDictionary
281
     1
  0
DICTIONARY
  5
1A
102
{ACAD_REACTORS
330
C
102
}
330
C
100
AcDbDictionary
281
     1
  3
Layout1
350
1E
  3
Layout2
350
26
  3
Model
350
22
  0
DICTIONARY
  5
17
102
{ACAD_REACTORS
330
C
102
}
330
C
100
AcDbDictionary
281
     1
  3
Standard
350
18
  0
DICTIONARY
  5
19
102
{ACAD_REACTORS
330
C
102
}
330
C
100
AcDbDictionary
281
     1
  0
ACDBDICTIONARYWDFLT
  5
E
102
{ACAD_REACTORS
330
C
102
}
330
C
100
AcDbDictionary
281
     1
  3
Normal
350
F
100
AcDbDictionaryWithDefault
340
F
  0
DICTIONARY
  5
47
102
{ACAD_REACTORS
330
C
102
}
330
C
100
AcDbDictionary
281
     1
  3
A0
350
48
  3
A1
350
49
  3
A2
350
4A
  3
A3
350
4B
  3
A4
350
4C
  3
A5
350
4D
  3
A6
350
4E
  3
A7
350
4F
  3
A8
350
50
  3
A9
350
51
  3
B0
350
52
  3
B1
350
53
  3
B2
350
54
  3
B3
350
55
  3
B4
350
56
  3
B5
350
57
  3
B6
350
58
  3
B7
350
59
  3
B8
350
5A
  3
B9
350
5B
  3
C0
350
5C
  3
C1
350
5D
  3
C2
350
5E
  3
C3
350
5F
  3
C4
350
60
  3
C5
350
61
  3
C6
350
62
  3
C7
350
63
  3
C8
350
64
  3
C9
350
65
  3
D0
350
66
  3
D1
350
67
  3
D2
350
68
  0
XRECORD
  5
CB
102
{ACAD_REACTORS
330
C
102
}
330
C
100
AcDbXrecord
280
     1
  1
DWGPROPS COOKIE
  2

  3

  4

  6

  7

  8
b.kav
  9

300
=
301
=
302
=
303
=
304
=
305
=
306
=
307
=
308
=
309
=
 40
0.0
 41
2459921.411943727
 42
2459921.411943935
  1

 90
        0
  0
LAYOUT
  5
1E
102
{ACAD_REACTORS
330
1A
102
}
330
1A
100
AcDbPlotSettings
  1

  2
none_device
  4

  6

 40
0.0
 41
0.0
 42
0.0
 43
0.0
 44
0.0
 45
0.0
 46
0.0
 47
0.0
 48
0.0
 49
0.0
140
0.0
141
0.0
142
1.0
143
1.0
 70
   688
 72
     1
 73
     0
 74
     5
  7

 75
    16
147
1.0
148
0.0
149
0.0
100
AcDbLayout
  1
Layout1
 70
     1
 71
     1
 10
0.0
 20
0.0
 11
420.0
 21
297.0
 12
0.0
 22
0.0
 32
0.0
 14
1.0000000000E+20
 24
1.0000000000E+20
 34
1.0000000000E+20
 15
-1.0000000000E+20
 25
-1.0000000000E+20
 35
-1.0000000000E+20
146
0.0
 13
0.0
 23
0.0
 33
0.0
 16
1.0
 26
0.0
 36
0.0
 17
0.0
 27
1.0
 37
0.0
 76
     0
330
1B
  0
LAYOUT
  5
26
102
{ACAD_REACTORS
330
1A
102
}
330
1A
100
AcDbPlotSettings
  1

  2
none_device
  4

  6

 40
0.0
 41
0.0
 42
0.0
 43
0.0
 44
0.0
 45
0.0
 46
0.0
 47
0.0
 48
0.0
 49
0.0
140
0.0
141
0.0
142
1.0
143
1.0
 70
   688
 72
     1
 73
     0
 74
     5
  7

 75
    16
147
1.0
148
0.0
149
0.0
100
AcDbLayout
  1
Layout2
 70
     1
 71
     2
 10
0.0
 20
0.0
 11
0.0
 21
0.0
 12
0.0
 22
0.0
 32
0.0
 14
0.0
 24
0.0
 34
0.0
 15
0.0
 25
0.0
 35
0.0
146
0.0
 13
0.0
 23
0.0
 33
0.0
 16
1.0
 26
0.0
 36
0.0
 17
0.0
 27
1.0
 37
0.0
 76
     0
330
23
  0
LAYOUT
  5
22
102
{ACAD_REACTORS
330
1A
102
}
330
1A
100
AcDbPlotSettings
  1

  2
none_device
  4
Letter_(8.50_x_11.00_Inches)
  6

 40
6.35
 41
6.35
 42
6.35000508
 43
6.35000508
 44
215.9
 45
279.4
 46
0.0
 47
0.0
 48
0.0
 49
0.0
140
0.0
141
0.0
142
1.0
143
1.0
 70
  1712
 72
     1
 73
     0
 74
     0
  7

 75
     0
147
1.0
148
0.0
149
0.0
100
AcDbLayout
  1
Model
 70
     1
 71
     0
 10
0.0
 20
0.0
 11
279.4
 21
215.9
 12
0.0
 22
0.0
 32
0.0
 14
0.0
 24
0.0
 34
0.0
 15
279.4
 25
215.9
 35
0.0
146
0.0
 13
0.0
 23
0.0
 33
0.0
 16
1.0
 26
0.0
 36
0.0
 17
0.0
 27
1.0
 37
0.0
 76
     0
330
1F
331
29
  0
MLINESTYLE
  5
18
102
{ACAD_REACTORS
330
17
102
}
330
17
100
AcDbMlineStyle
  2
Standard
 70
     0
  3

 62
   256
 51
90.0
 52
90.0
 71
     2
 49
0.5
 62
   256
  6
BYLAYER
 49
-0.5
 62
   256
  6
BYLAYER
  0
ACDBPLACEHOLDER
  5
F
102
{ACAD_REACTORS
330
E
102
}
330
E
  0
SCALE
  5
48
102
{ACAD_REACTORS
330
47
102
}
330
47
100
AcDbScale
 70
     0
300
1:1
140
1.0
141
1.0
290
     1
  0
SCALE
  5
49
102
{ACAD_REACTORS
330
47
102
}
330
47
100
AcDbScale
 70
     0
300
1:2
140
1.0
141
2.0
290
     0
  0
SCALE
  5
4A
102
{ACAD_REACTORS
330
47
102
}
330
47
100
AcDbScale
 70
     0
300
1:4
140
1.0
141
4.0
290
     0
  0
SCALE
  5
4B
102
{ACAD_REACTORS
330
47
102
}
330
47
100
AcDbScale
 70
     0
300
1:5
140
1.0
141
5.0
290
     0
  0
SCALE
  5
4C
102
{ACAD_REACTORS
330
47
102
}
330
47
100
AcDbScale
 70
     0
300
1:8
140
1.0
141
8.0
290
     0
  0
SCALE
  5
4D
102
{ACAD_REACTORS
330
47
102
}
330
47
100
AcDbScale
 70
     0
300
1:10
140
1.0
141
10.0
290
     0
  0
SCALE
  5
4E
102
{ACAD_REACTORS
330
47
102
}
330
47
100
AcDbScale
 70
     0
300
1:16
140
1.0
141
16.0
290
     0
  0
SCALE
  5
4F
102
{ACAD_REACTORS
330
47
102
}
330
47
100
AcDbScale
 70
     0
300
1:20
140
1.0
141
20.0
290
     0
  0
SCALE
  5
50
102
{ACAD_REACTORS
330
47
102
}
330
47
100
AcDbScale
 70
     0
300
1:30
140
1.0
141
30.0
290
     0
  0
SCALE
  5
51
102
{ACAD_REACTORS
330
47
102
}
330
47
100
AcDbScale
 70
     0
300
1:40
140
1.0
141
40.0
290
     0
  0
SCALE
  5
52
102
{ACAD_REACTORS
330
47
102
}
330
47
100
AcDbScale
 70
     0
300
1:50
140
1.0
141
50.0
290
     0
  0
SCALE
  5
53
102
{ACAD_REACTORS
330
47
102
}
330
47
100
AcDbScale
 70
     0
300
1:100
140
1.0
141
100.0
290
     0
  0
SCALE
  5
54
102
{ACAD_REACTORS
330
47
102
}
330
47
100
AcDbScale
 70
     0
300
2:1
140
2.0
141
1.0
290
     0
  0
SCALE
  5
55
102
{ACAD_REACTORS
330
47
102
}
330
47
100
AcDbScale
 70
     0
300
4:1
140
4.0
141
1.0
290
     0
  0
SCALE
  5
56
102
{ACAD_REACTORS
330
47
102
}
330
47
100
AcDbScale
 70
     0
300
8:1
140
8.0
141
1.0
290
     0
  0
SCALE
  5
57
102
{ACAD_REACTORS
330
47
102
}
330
47
100
AcDbScale
 70
     0
300
10:1
140
10.0
141
1.0
290
     0
  0
SCALE
  5
58
102
{ACAD_REACTORS
330
47
102
}
330
47
100
AcDbScale
 70
     0
300
100:1
140
100.0
141
1.0
290
     0
  0
SCALE
  5
59
102
{ACAD_REACTORS
330
47
102
}
330
47
100
AcDbScale
 70
     0
300
1/128" = 1'-0"
140
0.0078125
141
12.0
290
     0
  0
SCALE
  5
5A
102
{ACAD_REACTORS
330
47
102
}
330
47
100
AcDbScale
 70
     0
300
1/64" = 1'-0"
140
0.015625
141
12.0
290
     0
  0
SCALE
  5
5B
102
{ACAD_REACTORS
330
47
102
}
330
47
100
AcDbScale
 70
     0
300
1/32" = 1'-0"
140
0.03125
141
12.0
290
     0
  0
SCALE
  5
5C
102
{ACAD_REACTORS
330
47
102
}
330
47
100
AcDbScale
 70
     0
300
1/16" = 1'-0"
140
0.0625
141
12.0
290
     0
  0
SCALE
  5
5D
102
{ACAD_REACTORS
330
47
102
}
330
47
100
AcDbScale
 70
     0
300
3/32" = 1'-0"
140
0.09375
141
12.0
290
     0
  0
SCALE
  5
5E
102
{ACAD_REACTORS
330
47
102
}
330
47
100
AcDbScale
 70
     0
300
1/8" = 1'-0"
140
0.125
141
12.0
290
     0
  0
SCALE
  5
5F
102
{ACAD_REACTORS
330
47
102
}
330
47
100
AcDbScale
 70
     0
300
3/16" = 1'-0"
140
0.1875
141
12.0
290
     0
  0
SCALE
  5
60
102
{ACAD_REACTORS
330
47
102
}
330
47
100
AcDbScale
 70
     0
300
1/4" = 1'-0"
140
0.25
141
12.0
290
     0
  0
SCALE
  5
61
102
{ACAD_REACTORS
330
47
102
}
330
47
100
AcDbScale
 70
     0
300
3/8" = 1'-0"
140
0.375
141
12.0
290
     0
  0
SCALE
  5
62
102
{ACAD_REACTORS
330
47
102
}
330
47
100
AcDbScale
 70
     0
300
1/2" = 1'-0"
140
0.5
141
12.0
290
     0
  0
SCALE
  5
63
102
{ACAD_REACTORS
330
47
102
}
330
47
100
AcDbScale
 70
     0
300
3/4" = 1'-0"
140
0.75
141
12.0
290
     0
  0
SCALE
  5
64
102
{ACAD_REACTORS
330
47
102
}
330
47
100
AcDbScale
 70
     0
300
1" = 1'-0"
140
1.0
141
12.0
290
     0
  0
SCALE
  5
65
102
{ACAD_REACTORS
330
47
102
}
330
47
100
AcDbScale
 70
     0
300
1-1/2" = 1'-0"
140
1.5
141
12.0
290
     0
  0
SCALE
  5
66
102
{ACAD_REACTORS
330
47
102
}
330
47
100
AcDbScale
 70
     0
300
3" = 1'-0"
140
3.0
141
12.0
290
     0
  0
SCALE
  5
67
102
{ACAD_REACTORS
330
47
102
}
330
47
100
AcDbScale
 70
     0
300
6" = 1'-0"
140
6.0
141
12.0
290
     0
  0
SCALE
  5
68
102
{ACAD_REACTORS
330
47
102
}
330
47
100
AcDbScale
 70
     0
300
1'-0" = 1'-0"
140
12.0
141
12.0
290
     0
  0
ENDSEC
  0
EOF
